ISO-10303-21;
HEADER;
FILE_DESCRIPTION (( 'STEP AP203' ),
    '1' );
FILE_NAME ('Slot Washer 15 x 5 x 2.step',
    '2015-07-29T19:35:10',
    ( '' ),
    ( '' ),
    'SwSTEP 2.0',
    'SolidWorks 2014',
    '' );
FILE_SCHEMA (( 'CONFIG_CONTROL_DESIGN' ));
ENDSEC;

DATA;
#1 = PERSON_AND_ORGANIZATION_ROLE ( 'design_supplier' ) ;
#2 = AXIS2_PLACEMENT_3D ( 'NONE', #44, #8, #114 ) ;
#3 = CALENDAR_DATE ( 2015, 29, 7 ) ;
#4 = VECTOR ( 'NONE', #220, 1000.000000000000000 ) ;
#5 = DIRECTION ( 'NONE',  ( -0.0000000000000000000, -1.000000000000000000, -0.0000000000000000000 ) ) ;
#6 = ADVANCED_FACE ( 'NONE', ( #171 ), #178, .F. ) ;
#7 = CARTESIAN_POINT ( 'NONE',  ( 3.306546357697853700E-016, 2.000000000000000000, 2.700000000000000200 ) ) ;
#8 = DIRECTION ( 'NONE',  ( -0.0000000000000000000, -1.000000000000000000, -0.0000000000000000000 ) ) ;
#9 = ORGANIZATION ( 'UNSPECIFIED', 'UNSPECIFIED', '' ) ;
#10 = ADVANCED_BREP_SHAPE_REPRESENTATION ( 'Slot Washer 15 x 5 x 2', ( #42, #32 ), #162 ) ;
#11 = PERSON_AND_ORGANIZATION ( #63, #9 ) ;
#12 = APPLICATION_PROTOCOL_DEFINITION ( 'international standard', 'config_control_design', 1994, #14 ) ;
#13 = EDGE_CURVE ( 'NONE', #125, #168, #175, .T. ) ;
#14 = APPLICATION_CONTEXT ( 'configuration controlled 3d designs of mechanical parts and assemblies' ) ;
#15 = CARTESIAN_POINT ( 'NONE',  ( 0.0000000000000000000, 0.0000000000000000000, 0.0000000000000000000 ) ) ;
#16 = COORDINATED_UNIVERSAL_TIME_OFFSET ( 5, 0, .BEHIND. ) ;
#17 = UNCERTAINTY_MEASURE_WITH_UNIT (LENGTH_MEASURE( 1.000000000000000100E-005 ), #82, 'distance_accuracy_value', 'NONE');
#18 = AXIS2_PLACEMENT_3D ( 'NONE', #153, #156, #160 ) ;
#19 = AXIS2_PLACEMENT_3D ( 'NONE', #221, #219, #205 ) ;
#20 = DIRECTION ( 'NONE',  ( -0.0000000000000000000, -1.000000000000000000, -0.0000000000000000000 ) ) ;
#21 = ORIENTED_EDGE ( 'NONE', *, *, #53, .T. ) ;
#22 = PERSON_AND_ORGANIZATION ( #63, #9 ) ;
#23 = VERTEX_POINT ( 'NONE', #86 ) ;
#24 = DIRECTION ( 'NONE',  ( 0.0000000000000000000, -0.0000000000000000000, 1.000000000000000000 ) ) ;
#25 = CIRCLE ( 'NONE', #49, 7.500000000000000000 ) ;
#26 = CARTESIAN_POINT ( 'NONE',  ( 9.184850993605147900E-016, 2.000000000000000000, 7.500000000000000000 ) ) ;
#27 = APPROVAL_ROLE ( '' ) ;
#28 = EDGE_CURVE ( 'NONE', #107, #157, #25, .T. ) ;
#29 = COORDINATED_UNIVERSAL_TIME_OFFSET ( 5, 0, .BEHIND. ) ;
#30 = APPROVAL_PERSON_ORGANIZATION ( #33, #120, #55 ) ;
#31 = DIRECTION ( 'NONE',  ( 0.0000000000000000000, 1.000000000000000000, 0.0000000000000000000 ) ) ;
#32 = AXIS2_PLACEMENT_3D ( 'NONE', #15, #52, #41 ) ;
#33 = PERSON_AND_ORGANIZATION ( #63, #9 ) ;
#34 = DESIGN_CONTEXT ( 'detailed design', #14, 'design' ) ;
#35 = AXIS2_PLACEMENT_3D ( 'NONE', #92, #126, #90 ) ;
#36 = PERSON_AND_ORGANIZATION_ROLE ( 'design_owner' ) ;
#37 = LOCAL_TIME ( 15, 35, 10.00000000000000000, #16 ) ;
#38 = MECHANICAL_CONTEXT ( 'NONE', #70, 'mechanical' ) ;
#39 = PERSON_AND_ORGANIZATION ( #63, #9 ) ;
#40 = ORIENTED_EDGE ( 'NONE', *, *, #238, .T. ) ;
#41 = DIRECTION ( 'NONE',  ( 1.000000000000000000, 0.0000000000000000000, 0.0000000000000000000 ) ) ;
#42 = MANIFOLD_SOLID_BREP ( 'Boss-Extrude1', #226 ) ;
#43 = PERSON_AND_ORGANIZATION ( #63, #9 ) ;
#44 = CARTESIAN_POINT ( 'NONE',  ( 0.0000000000000000000, 2.000000000000000000, 0.0000000000000000000 ) ) ;
#45 = EDGE_CURVE ( 'NONE', #168, #23, #172, .T. ) ;
#46 = CC_DESIGN_PERSON_AND_ORGANIZATION_ASSIGNMENT ( #39, #36, ( #225 ) ) ;
#47 = ORIENTED_EDGE ( 'NONE', *, *, #53, .F. ) ;
#48 = CC_DESIGN_APPROVAL ( #120, ( #67 ) ) ;
#49 = AXIS2_PLACEMENT_3D ( 'NONE', #193, #121, #60 ) ;
#50 = DIRECTION ( 'NONE',  ( 0.0000000000000000000, -0.0000000000000000000, 1.000000000000000000 ) ) ;
#51 = PLANE ( 'NONE',  #79 ) ;
#52 = DIRECTION ( 'NONE',  ( 0.0000000000000000000, 0.0000000000000000000, 1.000000000000000000 ) ) ;
#53 = EDGE_CURVE ( 'NONE', #118, #23, #177, .T. ) ;
#54 =( NAMED_UNIT ( * ) SI_UNIT ( $, .STERADIAN. ) SOLID_ANGLE_UNIT ( ) );
#55 = APPROVAL_ROLE ( '' ) ;
#56 = EDGE_CURVE ( 'NONE', #144, #158, #173, .T. ) ;
#57 = APPROVAL_STATUS ( 'not_yet_approved' ) ;
#58 = LOCAL_TIME ( 15, 35, 10.00000000000000000, #103 ) ;
#59 = DIRECTION ( 'NONE',  ( 0.0000000000000000000, 0.0000000000000000000, -1.000000000000000000 ) ) ;
#60 = DIRECTION ( 'NONE',  ( 0.0000000000000000000, 0.0000000000000000000, 1.000000000000000000 ) ) ;
#61 = DATE_TIME_ROLE ( 'creation_date' ) ;
#62 = PLANE ( 'NONE',  #102 ) ;
#63 = PERSON ( 'UNSPECIFIED', 'UNSPECIFIED', 'UNSPECIFIED', ('UNSPECIFIED'), ('UNSPECIFIED'), ('UNSPECIFIED') ) ;
#64 = CARTESIAN_POINT ( 'NONE',  ( 0.0000000000000000000, 0.0000000000000000000, 0.0000000000000000000 ) ) ;
#65 = CARTESIAN_POINT ( 'NONE',  ( 0.0000000000000000000, 2.000000000000000000, 0.0000000000000000000 ) ) ;
#66 = ORIENTED_EDGE ( 'NONE', *, *, #68, .F. ) ;
#67 = PRODUCT_DEFINITION ( 'UNKNOWN', '', #237, #34 ) ;
#68 = EDGE_CURVE ( 'NONE', #144, #107, #183, .T. ) ;
#69 = AXIS2_PLACEMENT_3D ( 'NONE', #245, #228, #174 ) ;
#70 = APPLICATION_CONTEXT ( 'configuration controlled 3d designs of mechanical parts and assemblies' ) ;
#71 = APPROVAL_STATUS ( 'not_yet_approved' ) ;
#72 = CARTESIAN_POINT ( 'NONE',  ( 0.0000000000000000000, 2.000000000000000000, -7.500000000000000000 ) ) ;
#73 = DIRECTION ( 'NONE',  ( 0.0000000000000000000, 0.0000000000000000000, -1.000000000000000000 ) ) ;
#74 = CARTESIAN_POINT ( 'NONE',  ( 0.0000000000000000000, 2.000000000000000000, 0.0000000000000000000 ) ) ;
#75 = DIRECTION ( 'NONE',  ( -0.0000000000000000000, -1.000000000000000000, -0.0000000000000000000 ) ) ;
#76 = CARTESIAN_POINT ( 'NONE',  ( 0.0000000000000000000, 2.000000000000000000, 0.0000000000000000000 ) ) ;
#77 = ORIENTED_EDGE ( 'NONE', *, *, #68, .T. ) ;
#78 = AXIS2_PLACEMENT_3D ( 'NONE', #151, #122, #112 ) ;
#79 = AXIS2_PLACEMENT_3D ( 'NONE', #64, #189, #50 ) ;
#80 = CALENDAR_DATE ( 2015, 29, 7 ) ;
#81 = CARTESIAN_POINT ( 'NONE',  ( 0.0000000000000000000, 2.000000000000000000, -7.500000000000000000 ) ) ;
#82 =( LENGTH_UNIT ( ) NAMED_UNIT ( * ) SI_UNIT ( .MILLI., .METRE. ) );
#83 = APPLICATION_PROTOCOL_DEFINITION ( 'international standard', 'config_control_design', 1994, #70 ) ;
#84 = APPROVAL_STATUS ( 'not_yet_approved' ) ;
#85 = PERSON_AND_ORGANIZATION_ROLE ( 'creator' ) ;
#86 = CARTESIAN_POINT ( 'NONE',  ( 3.306546357697853700E-016, 0.0000000000000000000, 2.700000000000000200 ) ) ;
#87 = AXIS2_PLACEMENT_3D ( 'NONE', #128, #133, #89 ) ;
#88 = DATE_TIME_ROLE ( 'classification_date' ) ;
#89 = DIRECTION ( 'NONE',  ( 0.0000000000000000000, 0.0000000000000000000, 1.000000000000000000 ) ) ;
#90 = DIRECTION ( 'NONE',  ( 0.0000000000000000000, 0.0000000000000000000, 1.000000000000000000 ) ) ;
#91 = CC_DESIGN_PERSON_AND_ORGANIZATION_ASSIGNMENT ( #43, #1, ( #237 ) ) ;
#92 = CARTESIAN_POINT ( 'NONE',  ( 0.0000000000000000000, 2.000000000000000000, 0.0000000000000000000 ) ) ;
#93 = APPROVAL_PERSON_ORGANIZATION ( #222, #200, #27 ) ;
#94 = SECURITY_CLASSIFICATION ( '', '', #234 ) ;
#95 = EDGE_CURVE ( 'NONE', #158, #144, #185, .T. ) ;
#96 = CALENDAR_DATE ( 2015, 29, 7 ) ;
#97 = PERSON_AND_ORGANIZATION_ROLE ( 'creator' ) ;
#98 = SHAPE_DEFINITION_REPRESENTATION ( #181, #10 ) ;
#99 = CARTESIAN_POINT ( 'NONE',  ( 3.306546357697853700E-016, 2.000000000000000000, 2.700000000000000200 ) ) ;
#100 = DIRECTION ( 'NONE',  ( 0.0000000000000000000, 0.0000000000000000000, 1.000000000000000000 ) ) ;
#101 = ORIENTED_EDGE ( 'NONE', *, *, #223, .F. ) ;
#102 = AXIS2_PLACEMENT_3D ( 'NONE', #65, #31, #24 ) ;
#103 = COORDINATED_UNIVERSAL_TIME_OFFSET ( 5, 0, .BEHIND. ) ;
#104 = DATE_AND_TIME ( #96, #58 ) ;
#105 = ADVANCED_FACE ( 'NONE', ( #182 ), #196, .F. ) ;
#106 =( NAMED_UNIT ( * ) PLANE_ANGLE_UNIT ( ) SI_UNIT ( $, .RADIAN. ) );
#107 = VERTEX_POINT ( 'NONE', #130 ) ;
#108 = ORIENTED_EDGE ( 'NONE', *, *, #238, .F. ) ;
#109 = EDGE_LOOP ( 'NONE', ( #163, #116 ) ) ;
#110 = CARTESIAN_POINT ( 'NONE',  ( 0.0000000000000000000, 2.000000000000000000, -2.700000000000000200 ) ) ;
#111 = ORIENTED_EDGE ( 'NONE', *, *, #229, .F. ) ;
#112 = DIRECTION ( 'NONE',  ( 0.0000000000000000000, 0.0000000000000000000, -1.000000000000000000 ) ) ;
#113 = AXIS2_PLACEMENT_3D ( 'NONE', #192, #135, #100 ) ;
#114 = DIRECTION ( 'NONE',  ( 0.0000000000000000000, 0.0000000000000000000, -1.000000000000000000 ) ) ;
#115 = ORIENTED_EDGE ( 'NONE', *, *, #229, .T. ) ;
#116 = ORIENTED_EDGE ( 'NONE', *, *, #213, .F. ) ;
#117 = ORIENTED_EDGE ( 'NONE', *, *, #56, .T. ) ;
#118 = VERTEX_POINT ( 'NONE', #224 ) ;
#119 = CC_DESIGN_PERSON_AND_ORGANIZATION_ASSIGNMENT ( #22, #127, ( #94 ) ) ;
#120 = APPROVAL ( #71, 'UNSPECIFIED' ) ;
#121 = DIRECTION ( 'NONE',  ( 0.0000000000000000000, 1.000000000000000000, 0.0000000000000000000 ) ) ;
#122 = DIRECTION ( 'NONE',  ( -0.0000000000000000000, -1.000000000000000000, -0.0000000000000000000 ) ) ;
#123 = ORIENTED_EDGE ( 'NONE', *, *, #248, .F. ) ;
#124 = ORIENTED_EDGE ( 'NONE', *, *, #28, .T. ) ;
#125 = VERTEX_POINT ( 'NONE', #110 ) ;
#126 = DIRECTION ( 'NONE',  ( 0.0000000000000000000, 1.000000000000000000, 0.0000000000000000000 ) ) ;
#127 = PERSON_AND_ORGANIZATION_ROLE ( 'classification_officer' ) ;
#128 = CARTESIAN_POINT ( 'NONE',  ( 0.0000000000000000000, 0.0000000000000000000, 0.0000000000000000000 ) ) ;
#129 = ADVANCED_FACE ( 'NONE', ( #191 ), #197, .T. ) ;
#130 = CARTESIAN_POINT ( 'NONE',  ( 9.184850993605147900E-016, 0.0000000000000000000, 7.500000000000000000 ) ) ;
#131 = EDGE_LOOP ( 'NONE', ( #164, #230, #47, #108 ) ) ;
#132 = EDGE_LOOP ( 'NONE', ( #101, #165 ) ) ;
#133 = DIRECTION ( 'NONE',  ( 0.0000000000000000000, 1.000000000000000000, 0.0000000000000000000 ) ) ;
#134 = ORIENTED_EDGE ( 'NONE', *, *, #56, .F. ) ;
#135 = DIRECTION ( 'NONE',  ( 0.0000000000000000000, 1.000000000000000000, 0.0000000000000000000 ) ) ;
#136 = CC_DESIGN_APPROVAL ( #200, ( #237 ) ) ;
#137 = EDGE_LOOP ( 'NONE', ( #21, #115 ) ) ;
#138 = EDGE_LOOP ( 'NONE', ( #134, #77, #124, #123 ) ) ;
#139 = ORIENTED_EDGE ( 'NONE', *, *, #95, .F. ) ;
#140 = ADVANCED_FACE ( 'NONE', ( #190, #186 ), #51, .F. ) ;
#141 = COORDINATED_UNIVERSAL_TIME_OFFSET ( 5, 0, .BEHIND. ) ;
#142 = DIRECTION ( 'NONE',  ( 0.0000000000000000000, 0.0000000000000000000, 1.000000000000000000 ) ) ;
#143 = ADVANCED_FACE ( 'NONE', ( #198, #203 ), #62, .T. ) ;
#144 = VERTEX_POINT ( 'NONE', #26 ) ;
#145 = ADVANCED_FACE ( 'NONE', ( #210 ), #209, .T. ) ;
#146 = CARTESIAN_POINT ( 'NONE',  ( 0.0000000000000000000, 2.000000000000000000, -2.700000000000000200 ) ) ;
#147 = CC_DESIGN_DATE_AND_TIME_ASSIGNMENT ( #239, #88, ( #94 ) ) ;
#148 = APPROVAL_DATE_TIME ( #167, #166 ) ;
#149 = EDGE_LOOP ( 'NONE', ( #240, #159, #40, #111 ) ) ;
#150 = EDGE_LOOP ( 'NONE', ( #66, #139, #155, #170 ) ) ;
#151 = CARTESIAN_POINT ( 'NONE',  ( 0.0000000000000000000, 2.000000000000000000, 0.0000000000000000000 ) ) ;
#152 = COORDINATED_UNIVERSAL_TIME_OFFSET ( 5, 0, .BEHIND. ) ;
#153 = CARTESIAN_POINT ( 'NONE',  ( 0.0000000000000000000, 2.000000000000000000, 0.0000000000000000000 ) ) ;
#154 = EDGE_LOOP ( 'NONE', ( #169, #117 ) ) ;
#155 = ORIENTED_EDGE ( 'NONE', *, *, #248, .T. ) ;
#156 = DIRECTION ( 'NONE',  ( 0.0000000000000000000, 1.000000000000000000, 0.0000000000000000000 ) ) ;
#157 = VERTEX_POINT ( 'NONE', #180 ) ;
#158 = VERTEX_POINT ( 'NONE', #81 ) ;
#159 = ORIENTED_EDGE ( 'NONE', *, *, #213, .T. ) ;
#160 = DIRECTION ( 'NONE',  ( 0.0000000000000000000, 0.0000000000000000000, 1.000000000000000000 ) ) ;
#161 = AXIS2_PLACEMENT_3D ( 'NONE', #74, #75, #73 ) ;
#162 =( GEOMETRIC_REPRESENTATION_CONTEXT ( 3 ) GLOBAL_UNCERTAINTY_ASSIGNED_CONTEXT ( ( #17 ) ) GLOBAL_UNIT_ASSIGNED_CONTEXT ( ( #82, #106, #54 ) ) REPRESENTATION_CONTEXT ( 'NONE', 'WORKASPACE' ) );
#163 = ORIENTED_EDGE ( 'NONE', *, *, #13, .F. ) ;
#164 = ORIENTED_EDGE ( 'NONE', *, *, #13, .T. ) ;
#165 = ORIENTED_EDGE ( 'NONE', *, *, #28, .F. ) ;
#166 = APPROVAL ( #57, 'UNSPECIFIED' ) ;
#167 = DATE_AND_TIME ( #241, #236 ) ;
#168 = VERTEX_POINT ( 'NONE', #7 ) ;
#169 = ORIENTED_EDGE ( 'NONE', *, *, #95, .T. ) ;
#170 = ORIENTED_EDGE ( 'NONE', *, *, #223, .T. ) ;
#171 = FACE_OUTER_BOUND ( 'NONE', #149, .T. ) ;
#172 = LINE ( 'NONE', #99, #179 ) ;
#173 = CIRCLE ( 'NONE', #113, 7.500000000000000000 ) ;
#174 = DIRECTION ( 'NONE',  ( 0.0000000000000000000, 0.0000000000000000000, 1.000000000000000000 ) ) ;
#175 = CIRCLE ( 'NONE', #35, 2.700000000000000200 ) ;
#176 = DIRECTION ( 'NONE',  ( 0.0000000000000000000, 1.000000000000000000, 0.0000000000000000000 ) ) ;
#177 = CIRCLE ( 'NONE', #87, 2.700000000000000200 ) ;
#178 = CYLINDRICAL_SURFACE ( 'NONE', #217, 2.700000000000000200 ) ;
#179 = VECTOR ( 'NONE', #208, 1000.000000000000000 ) ;
#180 = CARTESIAN_POINT ( 'NONE',  ( 0.0000000000000000000, 0.0000000000000000000, -7.500000000000000000 ) ) ;
#181 = PRODUCT_DEFINITION_SHAPE ( 'NONE', 'NONE',  #67 ) ;
#182 = FACE_OUTER_BOUND ( 'NONE', #131, .T. ) ;
#183 = LINE ( 'NONE', #232, #188 ) ;
#184 = CC_DESIGN_PERSON_AND_ORGANIZATION_ASSIGNMENT ( #214, #85, ( #237 ) ) ;
#185 = CIRCLE ( 'NONE', #18, 7.500000000000000000 ) ;
#186 = FACE_BOUND ( 'NONE', #137, .T. ) ;
#187 = CC_DESIGN_APPROVAL ( #166, ( #94 ) ) ;
#188 = VECTOR ( 'NONE', #5, 1000.000000000000000 ) ;
#189 = DIRECTION ( 'NONE',  ( 0.0000000000000000000, 1.000000000000000000, 0.0000000000000000000 ) ) ;
#190 = FACE_OUTER_BOUND ( 'NONE', #132, .T. ) ;
#191 = FACE_OUTER_BOUND ( 'NONE', #138, .T. ) ;
#192 = CARTESIAN_POINT ( 'NONE',  ( 0.0000000000000000000, 2.000000000000000000, 0.0000000000000000000 ) ) ;
#193 = CARTESIAN_POINT ( 'NONE',  ( 0.0000000000000000000, 0.0000000000000000000, 0.0000000000000000000 ) ) ;
#194 = PERSON_AND_ORGANIZATION ( #63, #9 ) ;
#195 = CIRCLE ( 'NONE', #19, 2.700000000000000200 ) ;
#196 = CYLINDRICAL_SURFACE ( 'NONE', #78, 2.700000000000000200 ) ;
#197 = CYLINDRICAL_SURFACE ( 'NONE', #161, 7.500000000000000000 ) ;
#198 = FACE_OUTER_BOUND ( 'NONE', #154, .T. ) ;
#199 = LINE ( 'NONE', #146, #215 ) ;
#200 = APPROVAL ( #84, 'UNSPECIFIED' ) ;
#201 = CARTESIAN_POINT ( 'NONE',  ( 0.0000000000000000000, 0.0000000000000000000, 0.0000000000000000000 ) ) ;
#202 = APPROVAL_PERSON_ORGANIZATION ( #194, #166, #212 ) ;
#203 = FACE_BOUND ( 'NONE', #109, .T. ) ;
#204 = CIRCLE ( 'NONE', #69, 7.500000000000000000 ) ;
#205 = DIRECTION ( 'NONE',  ( 0.0000000000000000000, 0.0000000000000000000, 1.000000000000000000 ) ) ;
#206 = CC_DESIGN_SECURITY_CLASSIFICATION ( #94, ( #237 ) ) ;
#207 = CIRCLE ( 'NONE', #242, 2.700000000000000200 ) ;
#208 = DIRECTION ( 'NONE',  ( -0.0000000000000000000, -1.000000000000000000, -0.0000000000000000000 ) ) ;
#209 = CYLINDRICAL_SURFACE ( 'NONE', #2, 7.500000000000000000 ) ;
#210 = FACE_OUTER_BOUND ( 'NONE', #150, .T. ) ;
#211 = LINE ( 'NONE', #72, #4 ) ;
#212 = APPROVAL_ROLE ( '' ) ;
#213 = EDGE_CURVE ( 'NONE', #168, #125, #195, .T. ) ;
#214 = PERSON_AND_ORGANIZATION ( #63, #9 ) ;
#215 = VECTOR ( 'NONE', #243, 1000.000000000000000 ) ;
#216 = PRODUCT_RELATED_PRODUCT_CATEGORY ( 'detail', '', ( #225 ) ) ;
#217 = AXIS2_PLACEMENT_3D ( 'NONE', #76, #20, #59 ) ;
#218 = LOCAL_TIME ( 15, 35, 10.00000000000000000, #152 ) ;
#219 = DIRECTION ( 'NONE',  ( 0.0000000000000000000, 1.000000000000000000, 0.0000000000000000000 ) ) ;
#220 = DIRECTION ( 'NONE',  ( -0.0000000000000000000, -1.000000000000000000, -0.0000000000000000000 ) ) ;
#221 = CARTESIAN_POINT ( 'NONE',  ( 0.0000000000000000000, 2.000000000000000000, 0.0000000000000000000 ) ) ;
#222 = PERSON_AND_ORGANIZATION ( #63, #9 ) ;
#223 = EDGE_CURVE ( 'NONE', #157, #107, #204, .T. ) ;
#224 = CARTESIAN_POINT ( 'NONE',  ( 0.0000000000000000000, 0.0000000000000000000, -2.700000000000000200 ) ) ;
#225 = PRODUCT ( 'Slot Washer 15 x 5 x 2', 'Slot Washer 15 x 5 x 2', '', ( #38 ) ) ;
#226 = CLOSED_SHELL ( 'NONE', ( #105, #129, #143, #140, #145, #6 ) ) ;
#227 = APPROVAL_DATE_TIME ( #246, #120 ) ;
#228 = DIRECTION ( 'NONE',  ( 0.0000000000000000000, 1.000000000000000000, 0.0000000000000000000 ) ) ;
#229 = EDGE_CURVE ( 'NONE', #23, #118, #207, .T. ) ;
#230 = ORIENTED_EDGE ( 'NONE', *, *, #45, .T. ) ;
#231 = CC_DESIGN_DATE_AND_TIME_ASSIGNMENT ( #104, #61, ( #67 ) ) ;
#232 = CARTESIAN_POINT ( 'NONE',  ( 9.184850993605147900E-016, 2.000000000000000000, 7.500000000000000000 ) ) ;
#233 = CALENDAR_DATE ( 2015, 29, 7 ) ;
#234 = SECURITY_CLASSIFICATION_LEVEL ( 'unclassified' ) ;
#235 = APPROVAL_DATE_TIME ( #244, #200 ) ;
#236 = LOCAL_TIME ( 15, 35, 10.00000000000000000, #141 ) ;
#237 = PRODUCT_DEFINITION_FORMATION_WITH_SPECIFIED_SOURCE ( 'ANY', '', #225, .NOT_KNOWN. ) ;
#238 = EDGE_CURVE ( 'NONE', #125, #118, #199, .T. ) ;
#239 = DATE_AND_TIME ( #233, #37 ) ;
#240 = ORIENTED_EDGE ( 'NONE', *, *, #45, .F. ) ;
#241 = CALENDAR_DATE ( 2015, 29, 7 ) ;
#242 = AXIS2_PLACEMENT_3D ( 'NONE', #201, #176, #142 ) ;
#243 = DIRECTION ( 'NONE',  ( -0.0000000000000000000, -1.000000000000000000, -0.0000000000000000000 ) ) ;
#244 = DATE_AND_TIME ( #3, #218 ) ;
#245 = CARTESIAN_POINT ( 'NONE',  ( 0.0000000000000000000, 0.0000000000000000000, 0.0000000000000000000 ) ) ;
#246 = DATE_AND_TIME ( #80, #247 ) ;
#247 = LOCAL_TIME ( 15, 35, 10.00000000000000000, #29 ) ;
#248 = EDGE_CURVE ( 'NONE', #158, #157, #211, .T. ) ;
#249 = CC_DESIGN_PERSON_AND_ORGANIZATION_ASSIGNMENT ( #11, #97, ( #67 ) ) ;
ENDSEC;
END-ISO-10303-21;
