ISO-10303-21;
HEADER;
FILE_DESCRIPTION (( 'STEP AP203' ),
    '1' );
FILE_NAME ('Joining Strip Plate 2 Hole.step',
    '2015-07-29T19:37:34',
    ( '' ),
    ( '' ),
    'SwSTEP 2.0',
    'SolidWorks 2014',
    '' );
FILE_SCHEMA (( 'CONFIG_CONTROL_DESIGN' ));
ENDSEC;

DATA;
#1 = APPROVAL_PERSON_ORGANIZATION ( #2, #7, #152 ) ;
#2 = PERSON_AND_ORGANIZATION ( #223, #74 ) ;
#3 = DATE_AND_TIME ( #5, #4 ) ;
#4 = LOCAL_TIME ( 15, 37, 34.00000000000000000, #171 ) ;
#5 = CALENDAR_DATE ( 2015, 29, 7 ) ;
#6 = APPROVAL_DATE_TIME ( #115, #258 ) ;
#7 = APPROVAL ( #376, 'UNSPECIFIED' ) ;
#8 = LOCAL_TIME ( 15, 37, 34.00000000000000000, #79 ) ;
#9 = CALENDAR_DATE ( 2015, 29, 7 ) ;
#10 = CIRCLE ( 'NONE', #351, 2.550000000000000700 ) ;
#11 = VECTOR ( 'NONE', #174, 1000.000000000000000 ) ;
#12 = FACE_BOUND ( 'NONE', #190, .T. ) ;
#13 = APPLICATION_PROTOCOL_DEFINITION ( 'international standard', 'config_control_design', 1994, #373 ) ;
#14 = CYLINDRICAL_SURFACE ( 'NONE', #303, 2.550000000000000700 ) ;
#15 = CIRCLE ( 'NONE', #159, 2.550000000000000700 ) ;
#16 = AXIS2_PLACEMENT_3D ( 'NONE', #382, #254, #120 ) ;
#17 = VECTOR ( 'NONE', #315, 1000.000000000000000 ) ;
#18 = LINE ( 'NONE', #334, #17 ) ;
#19 = VECTOR ( 'NONE', #336, 1000.000000000000000 ) ;
#20 = DIRECTION ( 'NONE',  ( 0.0000000000000000000, 0.0000000000000000000, 1.000000000000000000 ) ) ;
#21 = CARTESIAN_POINT ( 'NONE',  ( -10.00000000000000500, 0.0000000000000000000, 0.0000000000000000000 ) ) ;
#22 = EDGE_CURVE ( 'NONE', #188, #230, #132, .T. ) ;
#23 = LINE ( 'NONE', #354, #44 ) ;
#24 = FACE_OUTER_BOUND ( 'NONE', #130, .T. ) ;
#25 = FACE_OUTER_BOUND ( 'NONE', #180, .T. ) ;
#26 = LINE ( 'NONE', #109, #61 ) ;
#27 = CYLINDRICAL_SURFACE ( 'NONE', #110, 2.550000000000000700 ) ;
#28 = EDGE_CURVE ( 'NONE', #215, #208, #135, .T. ) ;
#29 = DIRECTION ( 'NONE',  ( 0.0000000000000000000, 0.0000000000000000000, -1.000000000000000000 ) ) ;
#30 = LINE ( 'NONE', #140, #56 ) ;
#31 = DIRECTION ( 'NONE',  ( 1.000000000000000000, -0.0000000000000000000, 0.0000000000000000000 ) ) ;
#32 = CARTESIAN_POINT ( 'NONE',  ( -20.00000000000000400, 4.000000000000000000, 8.999999999999996400 ) ) ;
#33 = FACE_BOUND ( 'NONE', #151, .T. ) ;
#34 = LINE ( 'NONE', #356, #72 ) ;
#35 = PLANE ( 'NONE',  #150 ) ;
#36 = CARTESIAN_POINT ( 'NONE',  ( 19.99999999999999600, 0.0000000000000000000, -9.000000000000007100 ) ) ;
#37 = CC_DESIGN_PERSON_AND_ORGANIZATION_ASSIGNMENT ( #66, #63, ( #77 ) ) ;
#38 = CIRCLE ( 'NONE', #346, 2.550000000000000700 ) ;
#39 = FACE_OUTER_BOUND ( 'NONE', #165, .T. ) ;
#40 = FACE_OUTER_BOUND ( 'NONE', #161, .T. ) ;
#41 = APPROVAL_PERSON_ORGANIZATION ( #58, #258, #251 ) ;
#42 = DIRECTION ( 'NONE',  ( 0.0000000000000000000, -0.0000000000000000000, 1.000000000000000000 ) ) ;
#43 = DIRECTION ( 'NONE',  ( 1.000000000000000000, -0.0000000000000000000, -8.673617379884035500E-017 ) ) ;
#44 = VECTOR ( 'NONE', #331, 1000.000000000000000 ) ;
#45 = CYLINDRICAL_SURFACE ( 'NONE', #65, 2.550000000000000700 ) ;
#46 = FACE_OUTER_BOUND ( 'NONE', #191, .T. ) ;
#47 = DIRECTION ( 'NONE',  ( 0.0000000000000000000, 1.000000000000000000, 0.0000000000000000000 ) ) ;
#48 = LINE ( 'NONE', #332, #19 ) ;
#49 = VECTOR ( 'NONE', #313, 1000.000000000000000 ) ;
#50 = LINE ( 'NONE', #321, #49 ) ;
#51 = FACE_OUTER_BOUND ( 'NONE', #179, .T. ) ;
#52 = LINE ( 'NONE', #319, #60 ) ;
#53 = CYLINDRICAL_SURFACE ( 'NONE', #16, 2.550000000000000700 ) ;
#54 = EDGE_CURVE ( 'NONE', #147, #231, #137, .T. ) ;
#55 = FACE_BOUND ( 'NONE', #164, .T. ) ;
#56 = VECTOR ( 'NONE', #68, 1000.000000000000000 ) ;
#57 = FACE_BOUND ( 'NONE', #184, .T. ) ;
#58 = PERSON_AND_ORGANIZATION ( #223, #74 ) ;
#59 = APPLICATION_CONTEXT ( 'configuration controlled 3d designs of mechanical parts and assemblies' ) ;
#60 = VECTOR ( 'NONE', #287, 1000.000000000000000 ) ;
#61 = VECTOR ( 'NONE', #108, 1000.000000000000000 ) ;
#62 = EDGE_CURVE ( 'NONE', #208, #227, #145, .T. ) ;
#63 = PERSON_AND_ORGANIZATION_ROLE ( 'design_owner' ) ;
#64 = CARTESIAN_POINT ( 'NONE',  ( 0.0000000000000000000, 0.0000000000000000000, 0.0000000000000000000 ) ) ;
#65 = AXIS2_PLACEMENT_3D ( 'NONE', #124, #380, #127 ) ;
#66 = PERSON_AND_ORGANIZATION ( #223, #74 ) ;
#67 = SHAPE_DEFINITION_REPRESENTATION ( #299, #175 ) ;
#68 = DIRECTION ( 'NONE',  ( -0.0000000000000000000, -1.000000000000000000, -0.0000000000000000000 ) ) ;
#69 = VERTEX_POINT ( 'NONE', #210 ) ;
#70 = PLANE ( 'NONE',  #358 ) ;
#71 = DIRECTION ( 'NONE',  ( 0.0000000000000000000, 0.0000000000000000000, 1.000000000000000000 ) ) ;
#72 = VECTOR ( 'NONE', #361, 1000.000000000000000 ) ;
#73 = DIRECTION ( 'NONE',  ( 0.0000000000000000000, 1.000000000000000000, 0.0000000000000000000 ) ) ;
#74 = ORGANIZATION ( 'UNSPECIFIED', 'UNSPECIFIED', '' ) ;
#75 = FACE_OUTER_BOUND ( 'NONE', #333, .T. ) ;
#76 = EDGE_CURVE ( 'NONE', #289, #328, #142, .T. ) ;
#77 = PRODUCT ( 'Joining Strip Plate 2 Hole', 'Joining Strip Plate 2 Hole', '', ( #102 ) ) ;
#78 = DIRECTION ( 'NONE',  ( 0.0000000000000000000, 0.0000000000000000000, 1.000000000000000000 ) ) ;
#79 = COORDINATED_UNIVERSAL_TIME_OFFSET ( 5, 0, .BEHIND. ) ;
#80 = COORDINATED_UNIVERSAL_TIME_OFFSET ( 5, 0, .BEHIND. ) ;
#81 = LOCAL_TIME ( 15, 37, 34.00000000000000000, #80 ) ;
#82 = CALENDAR_DATE ( 2015, 29, 7 ) ;
#83 = CARTESIAN_POINT ( 'NONE',  ( -10.00000000000000500, 0.0000000000000000000, 0.0000000000000000000 ) ) ;
#84 = DATE_AND_TIME ( #82, #81 ) ;
#85 = ORIENTED_EDGE ( 'NONE', *, *, #76, .T. ) ;
#86 = APPROVAL_DATE_TIME ( #84, #7 ) ;
#87 = PERSON_AND_ORGANIZATION ( #223, #74 ) ;
#88 = AXIS2_PLACEMENT_3D ( 'NONE', #362, #20, #194 ) ;
#89 = PERSON_AND_ORGANIZATION ( #223, #74 ) ;
#90 = PERSON_AND_ORGANIZATION ( #223, #74 ) ;
#91 = COORDINATED_UNIVERSAL_TIME_OFFSET ( 5, 0, .BEHIND. ) ;
#92 = LOCAL_TIME ( 15, 37, 34.00000000000000000, #91 ) ;
#93 = CALENDAR_DATE ( 2015, 29, 7 ) ;
#94 = DATE_AND_TIME ( #93, #92 ) ;
#95 = PERSON_AND_ORGANIZATION ( #223, #74 ) ;
#96 = EDGE_CURVE ( 'NONE', #231, #69, #182, .T. ) ;
#97 = APPROVAL_PERSON_ORGANIZATION ( #95, #262, #252 ) ;
#98 = COORDINATED_UNIVERSAL_TIME_OFFSET ( 5, 0, .BEHIND. ) ;
#99 = LOCAL_TIME ( 15, 37, 34.00000000000000000, #98 ) ;
#100 = CALENDAR_DATE ( 2015, 29, 7 ) ;
#101 = DATE_AND_TIME ( #100, #99 ) ;
#102 = MECHANICAL_CONTEXT ( 'NONE', #373, 'mechanical' ) ;
#103 = APPROVAL_DATE_TIME ( #101, #262 ) ;
#104 = APPLICATION_PROTOCOL_DEFINITION ( 'international standard', 'config_control_design', 1994, #59 ) ;
#105 = EDGE_CURVE ( 'NONE', #298, #206, #176, .T. ) ;
#106 = AXIS2_PLACEMENT_3D ( 'NONE', #148, #134, #133 ) ;
#107 = CARTESIAN_POINT ( 'NONE',  ( 9.999999999999994700, 0.0000000000000000000, -2.550000000000000700 ) ) ;
#108 = DIRECTION ( 'NONE',  ( -0.0000000000000000000, -1.000000000000000000, -0.0000000000000000000 ) ) ;
#109 = CARTESIAN_POINT ( 'NONE',  ( 9.999999999999994700, 4.000000000000000000, -2.550000000000000700 ) ) ;
#110 = AXIS2_PLACEMENT_3D ( 'NONE', #280, #166, #156 ) ;
#111 = CARTESIAN_POINT ( 'NONE',  ( -20.00000000000000400, 4.000000000000000000, 8.999999999999996400 ) ) ;
#112 = DIRECTION ( 'NONE',  ( 0.0000000000000000000, 1.000000000000000000, 0.0000000000000000000 ) ) ;
#113 = CARTESIAN_POINT ( 'NONE',  ( 9.999999999999994700, 4.000000000000000000, 2.550000000000000700 ) ) ;
#114 = EDGE_CURVE ( 'NONE', #227, #197, #138, .T. ) ;
#115 = DATE_AND_TIME ( #9, #8 ) ;
#116 = ADVANCED_FACE ( 'NONE', ( #170 ), #340, .F. ) ;
#117 = VECTOR ( 'NONE', #169, 1000.000000000000000 ) ;
#118 = CIRCLE ( 'NONE', #173, 2.550000000000000700 ) ;
#119 = FACE_OUTER_BOUND ( 'NONE', #301, .T. ) ;
#120 = DIRECTION ( 'NONE',  ( 0.0000000000000000000, 0.0000000000000000000, -1.000000000000000000 ) ) ;
#121 = VECTOR ( 'NONE', #257, 1000.000000000000000 ) ;
#122 = FACE_OUTER_BOUND ( 'NONE', #294, .T. ) ;
#123 = LINE ( 'NONE', #219, #11 ) ;
#124 = CARTESIAN_POINT ( 'NONE',  ( 9.999999999999994700, 4.000000000000000000, 0.0000000000000000000 ) ) ;
#125 = CIRCLE ( 'NONE', #199, 2.550000000000000700 ) ;
#126 = ORIENTED_EDGE ( 'NONE', *, *, #96, .F. ) ;
#127 = DIRECTION ( 'NONE',  ( 0.0000000000000000000, 0.0000000000000000000, -1.000000000000000000 ) ) ;
#128 = PRODUCT_DEFINITION_FORMATION_WITH_SPECIFIED_SOURCE ( 'ANY', '', #77, .NOT_KNOWN. ) ;
#129 = ORIENTED_EDGE ( 'NONE', *, *, #370, .F. ) ;
#130 = EDGE_LOOP ( 'NONE', ( #244, #367, #352, #316 ) ) ;
#131 = VECTOR ( 'NONE', #260, 1000.000000000000000 ) ;
#132 = LINE ( 'NONE', #160, #146 ) ;
#133 = DIRECTION ( 'NONE',  ( 0.0000000000000000000, 0.0000000000000000000, 1.000000000000000000 ) ) ;
#134 = DIRECTION ( 'NONE',  ( -1.000000000000000000, 0.0000000000000000000, 0.0000000000000000000 ) ) ;
#135 = LINE ( 'NONE', #276, #144 ) ;
#136 = ORIENTED_EDGE ( 'NONE', *, *, #261, .F. ) ;
#137 = LINE ( 'NONE', #297, #141 ) ;
#138 = LINE ( 'NONE', #36, #167 ) ;
#139 = AXIS2_PLACEMENT_3D ( 'NONE', #360, #377, #273 ) ;
#140 = CARTESIAN_POINT ( 'NONE',  ( -20.00000000000000400, 4.000000000000000000, -9.000000000000003600 ) ) ;
#141 = VECTOR ( 'NONE', #242, 1000.000000000000000 ) ;
#142 = CIRCLE ( 'NONE', #249, 2.550000000000000700 ) ;
#143 = PLANE ( 'NONE',  #106 ) ;
#144 = VECTOR ( 'NONE', #43, 1000.000000000000000 ) ;
#145 = LINE ( 'NONE', #224, #117 ) ;
#146 = VECTOR ( 'NONE', #240, 1000.000000000000000 ) ;
#147 = VERTEX_POINT ( 'NONE', #342 ) ;
#148 = CARTESIAN_POINT ( 'NONE',  ( 19.99999999999999600, 4.000000000000000000, 8.999999999999992900 ) ) ;
#149 = DIRECTION ( 'NONE',  ( 0.0000000000000000000, 1.000000000000000000, -0.0000000000000000000 ) ) ;
#150 = AXIS2_PLACEMENT_3D ( 'NONE', #32, #31, #29 ) ;
#151 = EDGE_LOOP ( 'NONE', ( #85, #209 ) ) ;
#152 = APPROVAL_ROLE ( '' ) ;
#153 = CC_DESIGN_DATE_AND_TIME_ASSIGNMENT ( #3, #337, ( #272 ) ) ;
#154 = CLOSED_SHELL ( 'NONE', ( #304, #302, #309, #296, #300, #368, #268, #116, #306, #267 ) ) ;
#155 = ORIENTED_EDGE ( 'NONE', *, *, #213, .F. ) ;
#156 = DIRECTION ( 'NONE',  ( 0.0000000000000000000, 0.0000000000000000000, -1.000000000000000000 ) ) ;
#157 = ORIENTED_EDGE ( 'NONE', *, *, #374, .T. ) ;
#158 = DIRECTION ( 'NONE',  ( 0.0000000000000000000, 0.0000000000000000000, -1.000000000000000000 ) ) ;
#159 = AXIS2_PLACEMENT_3D ( 'NONE', #83, #73, #71 ) ;
#160 = CARTESIAN_POINT ( 'NONE',  ( 19.99999999999999600, 4.000000000000000000, 8.999999999999992900 ) ) ;
#161 = EDGE_LOOP ( 'NONE', ( #155, #218, #282, #327 ) ) ;
#162 = ORIENTED_EDGE ( 'NONE', *, *, #265, .F. ) ;
#163 = ORIENTED_EDGE ( 'NONE', *, *, #311, .T. ) ;
#164 = EDGE_LOOP ( 'NONE', ( #193, #186 ) ) ;
#165 = EDGE_LOOP ( 'NONE', ( #201, #204, #136, #233 ) ) ;
#166 = DIRECTION ( 'NONE',  ( -0.0000000000000000000, -1.000000000000000000, -0.0000000000000000000 ) ) ;
#167 = VECTOR ( 'NONE', #207, 1000.000000000000000 ) ;
#168 = PRODUCT_RELATED_PRODUCT_CATEGORY ( 'detail', '', ( #77 ) ) ;
#169 = DIRECTION ( 'NONE',  ( 0.0000000000000000000, 0.0000000000000000000, -1.000000000000000000 ) ) ;
#170 = FACE_OUTER_BOUND ( 'NONE', #291, .T. ) ;
#171 = COORDINATED_UNIVERSAL_TIME_OFFSET ( 5, 0, .BEHIND. ) ;
#172 = LINE ( 'NONE', #284, #131 ) ;
#173 = AXIS2_PLACEMENT_3D ( 'NONE', #211, #200, #181 ) ;
#174 = DIRECTION ( 'NONE',  ( -0.0000000000000000000, -1.000000000000000000, -0.0000000000000000000 ) ) ;
#175 = ADVANCED_BREP_SHAPE_REPRESENTATION ( 'Joining Strip Plate 2 Hole', ( #264, #88 ), #335 ) ;
#176 = CIRCLE ( 'NONE', #241, 2.550000000000000700 ) ;
#177 = CC_DESIGN_SECURITY_CLASSIFICATION ( #323, ( #128 ) ) ;
#178 = ORIENTED_EDGE ( 'NONE', *, *, #62, .T. ) ;
#179 = EDGE_LOOP ( 'NONE', ( #226, #381, #129, #163 ) ) ;
#180 = EDGE_LOOP ( 'NONE', ( #203, #292, #198, #237 ) ) ;
#181 = DIRECTION ( 'NONE',  ( 0.0000000000000000000, 0.0000000000000000000, -1.000000000000000000 ) ) ;
#182 = CIRCLE ( 'NONE', #245, 2.550000000000000700 ) ;
#183 = CC_DESIGN_PERSON_AND_ORGANIZATION_ASSIGNMENT ( #87, #217, ( #128 ) ) ;
#184 = EDGE_LOOP ( 'NONE', ( #278, #266 ) ) ;
#185 = CC_DESIGN_APPROVAL ( #262, ( #323 ) ) ;
#186 = ORIENTED_EDGE ( 'NONE', *, *, #96, .T. ) ;
#187 = AXIS2_PLACEMENT_3D ( 'NONE', #348, #338, #324 ) ;
#188 = VERTEX_POINT ( 'NONE', #322 ) ;
#189 = ORIENTED_EDGE ( 'NONE', *, *, #22, .F. ) ;
#190 = EDGE_LOOP ( 'NONE', ( #228, #216 ) ) ;
#191 = EDGE_LOOP ( 'NONE', ( #329, #349, #157, #126 ) ) ;
#192 = ORIENTED_EDGE ( 'NONE', *, *, #384, .T. ) ;
#193 = ORIENTED_EDGE ( 'NONE', *, *, #279, .T. ) ;
#194 = DIRECTION ( 'NONE',  ( 1.000000000000000000, 0.0000000000000000000, 0.0000000000000000000 ) ) ;
#195 = VERTEX_POINT ( 'NONE', #314 ) ;
#196 = PERSON_AND_ORGANIZATION ( #223, #74 ) ;
#197 = VERTEX_POINT ( 'NONE', #318 ) ;
#198 = ORIENTED_EDGE ( 'NONE', *, *, #76, .F. ) ;
#199 = AXIS2_PLACEMENT_3D ( 'NONE', #239, #232, #225 ) ;
#200 = DIRECTION ( 'NONE',  ( 0.0000000000000000000, 1.000000000000000000, -0.0000000000000000000 ) ) ;
#201 = ORIENTED_EDGE ( 'NONE', *, *, #213, .T. ) ;
#202 = CARTESIAN_POINT ( 'NONE',  ( 9.999999999999994700, 0.0000000000000000000, 0.0000000000000000000 ) ) ;
#203 = ORIENTED_EDGE ( 'NONE', *, *, #255, .T. ) ;
#204 = ORIENTED_EDGE ( 'NONE', *, *, #311, .F. ) ;
#205 = ORIENTED_EDGE ( 'NONE', *, *, #385, .F. ) ;
#206 = VERTEX_POINT ( 'NONE', #288 ) ;
#207 = DIRECTION ( 'NONE',  ( -1.000000000000000000, 0.0000000000000000000, 8.673617379884035500E-017 ) ) ;
#208 = VERTEX_POINT ( 'NONE', #312 ) ;
#209 = ORIENTED_EDGE ( 'NONE', *, *, #326, .T. ) ;
#210 = CARTESIAN_POINT ( 'NONE',  ( -10.00000000000000500, 0.0000000000000000000, -2.550000000000000700 ) ) ;
#211 = CARTESIAN_POINT ( 'NONE',  ( 9.999999999999994700, 4.000000000000000000, 0.0000000000000000000 ) ) ;
#212 = LINE ( 'NONE', #214, #121 ) ;
#213 = EDGE_CURVE ( 'NONE', #197, #215, #172, .T. ) ;
#214 = CARTESIAN_POINT ( 'NONE',  ( -20.00000000000000400, 4.000000000000000000, 8.999999999999996400 ) ) ;
#215 = VERTEX_POINT ( 'NONE', #263 ) ;
#216 = ORIENTED_EDGE ( 'NONE', *, *, #105, .F. ) ;
#217 = PERSON_AND_ORGANIZATION_ROLE ( 'creator' ) ;
#218 = ORIENTED_EDGE ( 'NONE', *, *, #114, .F. ) ;
#219 = CARTESIAN_POINT ( 'NONE',  ( 19.99999999999999600, 4.000000000000000000, -9.000000000000007100 ) ) ;
#220 = CC_DESIGN_APPROVAL ( #7, ( #128 ) ) ;
#221 = ORIENTED_EDGE ( 'NONE', *, *, #290, .F. ) ;
#222 = APPROVAL_STATUS ( 'not_yet_approved' ) ;
#223 = PERSON ( 'UNSPECIFIED', 'UNSPECIFIED', 'UNSPECIFIED', ('UNSPECIFIED'), ('UNSPECIFIED'), ('UNSPECIFIED') ) ;
#224 = CARTESIAN_POINT ( 'NONE',  ( 19.99999999999999600, 0.0000000000000000000, 8.999999999999992900 ) ) ;
#225 = DIRECTION ( 'NONE',  ( 0.0000000000000000000, 0.0000000000000000000, 1.000000000000000000 ) ) ;
#226 = ORIENTED_EDGE ( 'NONE', *, *, #28, .T. ) ;
#227 = VERTEX_POINT ( 'NONE', #320 ) ;
#228 = ORIENTED_EDGE ( 'NONE', *, *, #255, .F. ) ;
#229 = ORIENTED_EDGE ( 'NONE', *, *, #385, .T. ) ;
#230 = VERTEX_POINT ( 'NONE', #259 ) ;
#231 = VERTEX_POINT ( 'NONE', #256 ) ;
#232 = DIRECTION ( 'NONE',  ( 0.0000000000000000000, 1.000000000000000000, 0.0000000000000000000 ) ) ;
#233 = ORIENTED_EDGE ( 'NONE', *, *, #290, .T. ) ;
#234 = EDGE_CURVE ( 'NONE', #147, #369, #125, .T. ) ;
#235 = CC_DESIGN_PERSON_AND_ORGANIZATION_ASSIGNMENT ( #196, #248, ( #272 ) ) ;
#236 = ORIENTED_EDGE ( 'NONE', *, *, #22, .T. ) ;
#237 = ORIENTED_EDGE ( 'NONE', *, *, #270, .F. ) ;
#238 = CARTESIAN_POINT ( 'NONE',  ( 19.99999999999999600, 4.000000000000000000, 8.999999999999992900 ) ) ;
#239 = CARTESIAN_POINT ( 'NONE',  ( -10.00000000000000500, 4.000000000000000000, 0.0000000000000000000 ) ) ;
#240 = DIRECTION ( 'NONE',  ( 0.0000000000000000000, 0.0000000000000000000, -1.000000000000000000 ) ) ;
#241 = AXIS2_PLACEMENT_3D ( 'NONE', #357, #359, #325 ) ;
#242 = DIRECTION ( 'NONE',  ( -0.0000000000000000000, -1.000000000000000000, -0.0000000000000000000 ) ) ;
#243 = CC_DESIGN_APPROVAL ( #258, ( #272 ) ) ;
#244 = ORIENTED_EDGE ( 'NONE', *, *, #383, .T. ) ;
#245 = AXIS2_PLACEMENT_3D ( 'NONE', #21, #112, #78 ) ;
#246 = ORIENTED_EDGE ( 'NONE', *, *, #326, .F. ) ;
#247 = ORIENTED_EDGE ( 'NONE', *, *, #370, .T. ) ;
#248 = PERSON_AND_ORGANIZATION_ROLE ( 'creator' ) ;
#249 = AXIS2_PLACEMENT_3D ( 'NONE', #202, #149, #158 ) ;
#250 = SECURITY_CLASSIFICATION_LEVEL ( 'unclassified' ) ;
#251 = APPROVAL_ROLE ( '' ) ;
#252 = APPROVAL_ROLE ( '' ) ;
#253 = PERSON_AND_ORGANIZATION_ROLE ( 'classification_officer' ) ;
#254 = DIRECTION ( 'NONE',  ( -0.0000000000000000000, -1.000000000000000000, -0.0000000000000000000 ) ) ;
#255 = EDGE_CURVE ( 'NONE', #206, #298, #118, .T. ) ;
#256 = CARTESIAN_POINT ( 'NONE',  ( -10.00000000000000500, 0.0000000000000000000, 2.550000000000000700 ) ) ;
#257 = DIRECTION ( 'NONE',  ( -0.0000000000000000000, -0.0000000000000000000, 1.000000000000000000 ) ) ;
#258 = APPROVAL ( #222, 'UNSPECIFIED' ) ;
#259 = CARTESIAN_POINT ( 'NONE',  ( 19.99999999999999600, 4.000000000000000000, -9.000000000000007100 ) ) ;
#260 = DIRECTION ( 'NONE',  ( -0.0000000000000000000, -0.0000000000000000000, 1.000000000000000000 ) ) ;
#261 = EDGE_CURVE ( 'NONE', #195, #277, #212, .T. ) ;
#262 = APPROVAL ( #269, 'UNSPECIFIED' ) ;
#263 = CARTESIAN_POINT ( 'NONE',  ( -20.00000000000000400, 0.0000000000000000000, 8.999999999999996400 ) ) ;
#264 = MANIFOLD_SOLID_BREP ( 'Boss-Extrude1', #154 ) ;
#265 = EDGE_CURVE ( 'NONE', #230, #227, #123, .T. ) ;
#266 = ORIENTED_EDGE ( 'NONE', *, *, #234, .F. ) ;
#267 = ADVANCED_FACE ( 'NONE', ( #119 ), #27, .F. ) ;
#268 = ADVANCED_FACE ( 'NONE', ( #122 ), #143, .F. ) ;
#269 = APPROVAL_STATUS ( 'not_yet_approved' ) ;
#270 = EDGE_CURVE ( 'NONE', #206, #289, #26, .T. ) ;
#271 = DIRECTION ( 'NONE',  ( 0.0000000000000000000, 0.0000000000000000000, -1.000000000000000000 ) ) ;
#272 = PRODUCT_DEFINITION ( 'UNKNOWN', '', #128, #366 ) ;
#273 = DIRECTION ( 'NONE',  ( 0.0000000000000000000, -0.0000000000000000000, 1.000000000000000000 ) ) ;
#274 = ORIENTED_EDGE ( 'NONE', *, *, #261, .T. ) ;
#275 = DATE_TIME_ROLE ( 'classification_date' ) ;
#276 = CARTESIAN_POINT ( 'NONE',  ( 19.99999999999999600, 0.0000000000000000000, 8.999999999999992900 ) ) ;
#277 = VERTEX_POINT ( 'NONE', #111 ) ;
#278 = ORIENTED_EDGE ( 'NONE', *, *, #383, .F. ) ;
#279 = EDGE_CURVE ( 'NONE', #69, #231, #15, .T. ) ;
#280 = CARTESIAN_POINT ( 'NONE',  ( 9.999999999999994700, 4.000000000000000000, 0.0000000000000000000 ) ) ;
#281 = DIRECTION ( 'NONE',  ( -0.0000000000000000000, -1.000000000000000000, -0.0000000000000000000 ) ) ;
#282 = ORIENTED_EDGE ( 'NONE', *, *, #62, .F. ) ;
#283 = ORIENTED_EDGE ( 'NONE', *, *, #114, .T. ) ;
#284 = CARTESIAN_POINT ( 'NONE',  ( -20.00000000000000400, 0.0000000000000000000, 8.999999999999996400 ) ) ;
#285 = CARTESIAN_POINT ( 'NONE',  ( 9.999999999999994700, 0.0000000000000000000, 2.550000000000000700 ) ) ;
#286 = PLANE ( 'NONE',  #343 ) ;
#287 = DIRECTION ( 'NONE',  ( -0.0000000000000000000, -1.000000000000000000, -0.0000000000000000000 ) ) ;
#288 = CARTESIAN_POINT ( 'NONE',  ( 9.999999999999994700, 4.000000000000000000, -2.550000000000000700 ) ) ;
#289 = VERTEX_POINT ( 'NONE', #107 ) ;
#290 = EDGE_CURVE ( 'NONE', #195, #197, #30, .T. ) ;
#291 = EDGE_LOOP ( 'NONE', ( #283, #221, #205, #295 ) ) ;
#292 = ORIENTED_EDGE ( 'NONE', *, *, #378, .T. ) ;
#293 = ORIENTED_EDGE ( 'NONE', *, *, #105, .T. ) ;
#294 = EDGE_LOOP ( 'NONE', ( #178, #162, #189, #192 ) ) ;
#295 = ORIENTED_EDGE ( 'NONE', *, *, #265, .T. ) ;
#296 = ADVANCED_FACE ( 'NONE', ( #55, #40, #33 ), #70, .F. ) ;
#297 = CARTESIAN_POINT ( 'NONE',  ( -10.00000000000000500, 4.000000000000000000, 2.550000000000000700 ) ) ;
#298 = VERTEX_POINT ( 'NONE', #113 ) ;
#299 = PRODUCT_DEFINITION_SHAPE ( 'NONE', 'NONE',  #272 ) ;
#300 = ADVANCED_FACE ( 'NONE', ( #39 ), #35, .F. ) ;
#301 = EDGE_LOOP ( 'NONE', ( #347, #293, #317, #246 ) ) ;
#302 = ADVANCED_FACE ( 'NONE', ( #24 ), #14, .F. ) ;
#303 = AXIS2_PLACEMENT_3D ( 'NONE', #341, #281, #271 ) ;
#304 = ADVANCED_FACE ( 'NONE', ( #25 ), #45, .F. ) ;
#305 = DIRECTION ( 'NONE',  ( 0.0000000000000000000, 1.000000000000000000, -0.0000000000000000000 ) ) ;
#306 = ADVANCED_FACE ( 'NONE', ( #46 ), #53, .F. ) ;
#307 = DIRECTION ( 'NONE',  ( 0.0000000000000000000, 0.0000000000000000000, -1.000000000000000000 ) ) ;
#308 = CC_DESIGN_DATE_AND_TIME_ASSIGNMENT ( #94, #275, ( #323 ) ) ;
#309 = ADVANCED_FACE ( 'NONE', ( #57, #75, #12 ), #330, .T. ) ;
#310 = CARTESIAN_POINT ( 'NONE',  ( 9.999999999999994700, 0.0000000000000000000, 0.0000000000000000000 ) ) ;
#311 = EDGE_CURVE ( 'NONE', #277, #215, #52, .T. ) ;
#312 = CARTESIAN_POINT ( 'NONE',  ( 19.99999999999999600, 0.0000000000000000000, 8.999999999999992900 ) ) ;
#313 = DIRECTION ( 'NONE',  ( 1.000000000000000000, -0.0000000000000000000, -8.673617379884035500E-017 ) ) ;
#314 = CARTESIAN_POINT ( 'NONE',  ( -20.00000000000000400, 4.000000000000000000, -9.000000000000003600 ) ) ;
#315 = DIRECTION ( 'NONE',  ( -0.0000000000000000000, -1.000000000000000000, -0.0000000000000000000 ) ) ;
#316 = ORIENTED_EDGE ( 'NONE', *, *, #374, .F. ) ;
#317 = ORIENTED_EDGE ( 'NONE', *, *, #270, .T. ) ;
#318 = CARTESIAN_POINT ( 'NONE',  ( -20.00000000000000400, 0.0000000000000000000, -9.000000000000003600 ) ) ;
#319 = CARTESIAN_POINT ( 'NONE',  ( -20.00000000000000400, 4.000000000000000000, 8.999999999999996400 ) ) ;
#320 = CARTESIAN_POINT ( 'NONE',  ( 19.99999999999999600, 0.0000000000000000000, -9.000000000000007100 ) ) ;
#321 = CARTESIAN_POINT ( 'NONE',  ( 19.99999999999999600, 4.000000000000000000, 8.999999999999992900 ) ) ;
#322 = CARTESIAN_POINT ( 'NONE',  ( 19.99999999999999600, 4.000000000000000000, 8.999999999999992900 ) ) ;
#323 = SECURITY_CLASSIFICATION ( '', '', #250 ) ;
#324 = DIRECTION ( 'NONE',  ( 1.000000000000000000, 0.0000000000000000000, -8.673617379884035500E-017 ) ) ;
#325 = DIRECTION ( 'NONE',  ( 0.0000000000000000000, 0.0000000000000000000, -1.000000000000000000 ) ) ;
#326 = EDGE_CURVE ( 'NONE', #328, #289, #38, .T. ) ;
#327 = ORIENTED_EDGE ( 'NONE', *, *, #28, .F. ) ;
#328 = VERTEX_POINT ( 'NONE', #285 ) ;
#329 = ORIENTED_EDGE ( 'NONE', *, *, #54, .F. ) ;
#330 = PLANE ( 'NONE',  #139 ) ;
#331 = DIRECTION ( 'NONE',  ( -0.0000000000000000000, -1.000000000000000000, -0.0000000000000000000 ) ) ;
#332 = CARTESIAN_POINT ( 'NONE',  ( 9.999999999999994700, 4.000000000000000000, 2.550000000000000700 ) ) ;
#333 = EDGE_LOOP ( 'NONE', ( #274, #247, #236, #229 ) ) ;
#334 = CARTESIAN_POINT ( 'NONE',  ( 19.99999999999999600, 4.000000000000000000, 8.999999999999992900 ) ) ;
#335 =( GEOMETRIC_REPRESENTATION_CONTEXT ( 3 ) GLOBAL_UNCERTAINTY_ASSIGNED_CONTEXT ( ( #350 ) ) GLOBAL_UNIT_ASSIGNED_CONTEXT ( ( #363, #364, #365 ) ) REPRESENTATION_CONTEXT ( 'NONE', 'WORKASPACE' ) );
#336 = DIRECTION ( 'NONE',  ( -0.0000000000000000000, -1.000000000000000000, -0.0000000000000000000 ) ) ;
#337 = DATE_TIME_ROLE ( 'creation_date' ) ;
#338 = DIRECTION ( 'NONE',  ( 8.673617379884035500E-017, -0.0000000000000000000, 1.000000000000000000 ) ) ;
#339 = PERSON_AND_ORGANIZATION_ROLE ( 'design_supplier' ) ;
#340 = PLANE ( 'NONE',  #187 ) ;
#341 = CARTESIAN_POINT ( 'NONE',  ( -10.00000000000000500, 4.000000000000000000, 0.0000000000000000000 ) ) ;
#342 = CARTESIAN_POINT ( 'NONE',  ( -10.00000000000000500, 4.000000000000000000, 2.550000000000000700 ) ) ;
#343 = AXIS2_PLACEMENT_3D ( 'NONE', #238, #375, #355 ) ;
#344 = CARTESIAN_POINT ( 'NONE',  ( -10.00000000000000500, 4.000000000000000000, 0.0000000000000000000 ) ) ;
#345 = DIRECTION ( 'NONE',  ( 0.0000000000000000000, 1.000000000000000000, 0.0000000000000000000 ) ) ;
#346 = AXIS2_PLACEMENT_3D ( 'NONE', #310, #305, #307 ) ;
#347 = ORIENTED_EDGE ( 'NONE', *, *, #378, .F. ) ;
#348 = CARTESIAN_POINT ( 'NONE',  ( 19.99999999999999600, 4.000000000000000000, -9.000000000000007100 ) ) ;
#349 = ORIENTED_EDGE ( 'NONE', *, *, #234, .T. ) ;
#350 = UNCERTAINTY_MEASURE_WITH_UNIT (LENGTH_MEASURE( 1.000000000000000100E-005 ), #363, 'distance_accuracy_value', 'NONE');
#351 = AXIS2_PLACEMENT_3D ( 'NONE', #344, #345, #353 ) ;
#352 = ORIENTED_EDGE ( 'NONE', *, *, #279, .F. ) ;
#353 = DIRECTION ( 'NONE',  ( 0.0000000000000000000, 0.0000000000000000000, 1.000000000000000000 ) ) ;
#354 = CARTESIAN_POINT ( 'NONE',  ( -10.00000000000000500, 4.000000000000000000, -2.550000000000000700 ) ) ;
#355 = DIRECTION ( 'NONE',  ( -1.000000000000000000, 0.0000000000000000000, 8.673617379884035500E-017 ) ) ;
#356 = CARTESIAN_POINT ( 'NONE',  ( 19.99999999999999600, 4.000000000000000000, -9.000000000000007100 ) ) ;
#357 = CARTESIAN_POINT ( 'NONE',  ( 9.999999999999994700, 4.000000000000000000, 0.0000000000000000000 ) ) ;
#358 = AXIS2_PLACEMENT_3D ( 'NONE', #64, #47, #42 ) ;
#359 = DIRECTION ( 'NONE',  ( 0.0000000000000000000, 1.000000000000000000, -0.0000000000000000000 ) ) ;
#360 = CARTESIAN_POINT ( 'NONE',  ( 0.0000000000000000000, 4.000000000000000000, 0.0000000000000000000 ) ) ;
#361 = DIRECTION ( 'NONE',  ( -1.000000000000000000, 0.0000000000000000000, 8.673617379884035500E-017 ) ) ;
#362 = CARTESIAN_POINT ( 'NONE',  ( 0.0000000000000000000, 0.0000000000000000000, 0.0000000000000000000 ) ) ;
#363 =( LENGTH_UNIT ( ) NAMED_UNIT ( * ) SI_UNIT ( .MILLI., .METRE. ) );
#364 =( NAMED_UNIT ( * ) PLANE_ANGLE_UNIT ( ) SI_UNIT ( $, .RADIAN. ) );
#365 =( NAMED_UNIT ( * ) SI_UNIT ( $, .STERADIAN. ) SOLID_ANGLE_UNIT ( ) );
#366 = DESIGN_CONTEXT ( 'detailed design', #59, 'design' ) ;
#367 = ORIENTED_EDGE ( 'NONE', *, *, #54, .T. ) ;
#368 = ADVANCED_FACE ( 'NONE', ( #51 ), #286, .F. ) ;
#369 = VERTEX_POINT ( 'NONE', #379 ) ;
#370 = EDGE_CURVE ( 'NONE', #277, #188, #50, .T. ) ;
#371 = CC_DESIGN_PERSON_AND_ORGANIZATION_ASSIGNMENT ( #89, #339, ( #128 ) ) ;
#372 = CC_DESIGN_PERSON_AND_ORGANIZATION_ASSIGNMENT ( #90, #253, ( #323 ) ) ;
#373 = APPLICATION_CONTEXT ( 'configuration controlled 3d designs of mechanical parts and assemblies' ) ;
#374 = EDGE_CURVE ( 'NONE', #369, #69, #23, .T. ) ;
#375 = DIRECTION ( 'NONE',  ( -8.673617379884035500E-017, 0.0000000000000000000, -1.000000000000000000 ) ) ;
#376 = APPROVAL_STATUS ( 'not_yet_approved' ) ;
#377 = DIRECTION ( 'NONE',  ( 0.0000000000000000000, 1.000000000000000000, 0.0000000000000000000 ) ) ;
#378 = EDGE_CURVE ( 'NONE', #298, #328, #48, .T. ) ;
#379 = CARTESIAN_POINT ( 'NONE',  ( -10.00000000000000500, 4.000000000000000000, -2.550000000000000700 ) ) ;
#380 = DIRECTION ( 'NONE',  ( -0.0000000000000000000, -1.000000000000000000, -0.0000000000000000000 ) ) ;
#381 = ORIENTED_EDGE ( 'NONE', *, *, #384, .F. ) ;
#382 = CARTESIAN_POINT ( 'NONE',  ( -10.00000000000000500, 4.000000000000000000, 0.0000000000000000000 ) ) ;
#383 = EDGE_CURVE ( 'NONE', #369, #147, #10, .T. ) ;
#384 = EDGE_CURVE ( 'NONE', #188, #208, #18, .T. ) ;
#385 = EDGE_CURVE ( 'NONE', #230, #195, #34, .T. ) ;
ENDSEC;
END-ISO-10303-21;
